ISO-10303-21;
HEADER;
FILE_DESCRIPTION (( 'STEP AP214' ),
    '1' );
FILE_NAME ('am-1699 0.430 ID 0.500 OD 0.500 Long Aluminum Spacer.STEP',
    '2023-07-26T19:29:27',
    ( '' ),
    ( '' ),
    'SwSTEP 2.0',
    'SolidWorks 2022',
    '' );
FILE_SCHEMA (( 'AUTOMOTIVE_DESIGN' ));
ENDSEC;

DATA;
#1 = FACE_OUTER_BOUND ( 'NONE', #44, .T. ) ;
#2 =( NAMED_UNIT ( * ) PLANE_ANGLE_UNIT ( ) SI_UNIT ( $, .RADIAN. ) );
#3 = DIRECTION ( 'NONE',  ( -0.000000000000000000, -0.000000000000000000, -1.000000000000000000 ) ) ;
#4 = CYLINDRICAL_SURFACE ( 'NONE', #100, 0.2500000000000000000 ) ;
#5 = DIMENSIONAL_EXPONENTS ( 1.000000000000000000, 0.000000000000000000, 0.000000000000000000, 0.000000000000000000, 0.000000000000000000, 0.000000000000000000, 0.000000000000000000 ) ;
#6 = AXIS2_PLACEMENT_3D ( 'NONE', #170, #151, #51 ) ;
#7 = DIRECTION ( 'NONE',  ( 1.000000000000000000, 0.000000000000000000, 0.000000000000000000 ) ) ;
#8 = ORIENTED_EDGE ( 'NONE', *, *, #67, .T. ) ;
#9 = EDGE_CURVE ( 'NONE', #214, #81, #216, .T. ) ;
#10 = AXIS2_PLACEMENT_3D ( 'NONE', #150, #83, #171 ) ;
#11 = ORIENTED_EDGE ( 'NONE', *, *, #201, .T. ) ;
#12 = CARTESIAN_POINT ( 'NONE',  ( 0.2500000000000000000, 3.061616997868383018E-17, 0.000000000000000000 ) ) ;
#13 = CARTESIAN_POINT ( 'NONE',  ( 0.000000000000000000, 0.000000000000000000, 0.000000000000000000 ) ) ;
#14 = PRESENTATION_LAYER_ASSIGNMENT (  '', '', ( #73 ) ) ;
#15 = CARTESIAN_POINT ( 'NONE',  ( 0.000000000000000000, 0.000000000000000000, 0.5000000000000000000 ) ) ;
#16 = DIRECTION ( 'NONE',  ( 0.000000000000000000, 0.000000000000000000, 1.000000000000000000 ) ) ;
#17 = CARTESIAN_POINT ( 'NONE',  ( -0.2149999999999999689, 0.000000000000000000, 0.000000000000000000 ) ) ;
#18 = COLOUR_RGB ( '',0.8980392156862745390, 0.9176470588235293713, 0.9294117647058823817 ) ;
#19 = CARTESIAN_POINT ( 'NONE',  ( 0.2149999999999999689, 2.632990618166808804E-17, 0.5000000000000000000 ) ) ;
#20 = FILL_AREA_STYLE ('',( #110 ) ) ;
#21 = CIRCLE ( 'NONE', #25, 0.2500000000000000000 ) ;
#22 = LINE ( 'NONE', #19, #76 ) ;
#23 = EDGE_CURVE ( 'NONE', #81, #214, #107, .T. ) ;
#24 = DIRECTION ( 'NONE',  ( 0.000000000000000000, 0.000000000000000000, 1.000000000000000000 ) ) ;
#25 = AXIS2_PLACEMENT_3D ( 'NONE', #173, #16, #155 ) ;
#26 = VERTEX_POINT ( 'NONE', #113 ) ;
#27 = VERTEX_POINT ( 'NONE', #179 ) ;
#28 = ORIENTED_EDGE ( 'NONE', *, *, #176, .T. ) ;
#29 = DIRECTION ( 'NONE',  ( 0.000000000000000000, 0.000000000000000000, 1.000000000000000000 ) ) ;
#30 = FACE_OUTER_BOUND ( 'NONE', #78, .T. ) ;
#31 = FACE_BOUND ( 'NONE', #99, .T. ) ;
#32 =( NAMED_UNIT ( * ) PLANE_ANGLE_UNIT ( ) SI_UNIT ( $, .RADIAN. ) );
#33 = ADVANCED_FACE ( 'NONE', ( #149 ), #62, .T. ) ;
#34 = CARTESIAN_POINT ( 'NONE',  ( -0.2500000000000000000, 0.000000000000000000, 0.5000000000000000000 ) ) ;
#35 = DIRECTION ( 'NONE',  ( -1.000000000000000000, 0.000000000000000000, 0.000000000000000000 ) ) ;
#36 = AXIS2_PLACEMENT_3D ( 'NONE', #222, #183, #184 ) ;
#37 = CARTESIAN_POINT ( 'NONE',  ( 0.000000000000000000, 0.000000000000000000, 0.5000000000000000000 ) ) ;
#38 = CARTESIAN_POINT ( 'NONE',  ( -0.2500000000000000000, 0.000000000000000000, 0.000000000000000000 ) ) ;
#39 = DIRECTION ( 'NONE',  ( -0.000000000000000000, -0.000000000000000000, -1.000000000000000000 ) ) ;
#40 = ADVANCED_FACE ( 'NONE', ( #200 ), #54, .F. ) ;
#41 = PRODUCT ( 'am-1699 0.430 ID 0.500 OD 0.500 Long Aluminum Spacer', 'am-1699 0.430 ID 0.500 OD 0.500 Long Aluminum Spacer', '', ( #47 ) ) ;
#42 =( NAMED_UNIT ( * ) SI_UNIT ( $, .STERADIAN. ) SOLID_ANGLE_UNIT ( ) );
#43 = UNCERTAINTY_MEASURE_WITH_UNIT (LENGTH_MEASURE( 1.000000000000000082E-05 ), #223, 'distance_accuracy_value', 'NONE');
#44 = EDGE_LOOP ( 'NONE', ( #11, #199, #217, #94 ) ) ;
#45 = AXIS2_PLACEMENT_3D ( 'NONE', #140, #87, #193 ) ;
#46 = DIRECTION ( 'NONE',  ( -0.000000000000000000, -0.000000000000000000, -1.000000000000000000 ) ) ;
#47 = PRODUCT_CONTEXT ( 'NONE', #145, 'mechanical' ) ;
#48 = ORIENTED_EDGE ( 'NONE', *, *, #58, .T. ) ;
#49 = ORIENTED_EDGE ( 'NONE', *, *, #143, .T. ) ;
#50 = CARTESIAN_POINT ( 'NONE',  ( -0.2149999999999999689, 0.000000000000000000, 0.5000000000000000000 ) ) ;
#51 = DIRECTION ( 'NONE',  ( 1.000000000000000000, 0.000000000000000000, 0.000000000000000000 ) ) ;
#52 = FILL_AREA_STYLE ('',( #220 ) ) ;
#53 = STYLED_ITEM ( 'NONE', ( #91 ), #82 ) ;
#54 = CYLINDRICAL_SURFACE ( 'NONE', #189, 0.2149999999999999689 ) ;
#55 = FACE_OUTER_BOUND ( 'NONE', #96, .T. ) ;
#56 = DIRECTION ( 'NONE',  ( -1.000000000000000000, 0.000000000000000000, 0.000000000000000000 ) ) ;
#57 = DIRECTION ( 'NONE',  ( 0.000000000000000000, 0.000000000000000000, 1.000000000000000000 ) ) ;
#58 = EDGE_CURVE ( 'NONE', #61, #164, #186, .T. ) ;
#59 = PRESENTATION_LAYER_ASSIGNMENT (  '', '', ( #53 ) ) ;
#60 = ORIENTED_EDGE ( 'NONE', *, *, #192, .T. ) ;
#61 = VERTEX_POINT ( 'NONE', #12 ) ;
#62 = CYLINDRICAL_SURFACE ( 'NONE', #84, 0.2500000000000000000 ) ;
#63 = AXIS2_PLACEMENT_3D ( 'NONE', #163, #194, #7 ) ;
#64 = ORIENTED_EDGE ( 'NONE', *, *, #218, .T. ) ;
#65 = ORIENTED_EDGE ( 'NONE', *, *, #143, .F. ) ;
#66 = SURFACE_STYLE_USAGE ( .BOTH. , #69 ) ;
#67 = EDGE_CURVE ( 'NONE', #164, #61, #89, .T. ) ;
#68 =( GEOMETRIC_REPRESENTATION_CONTEXT ( 3 ) GLOBAL_UNCERTAINTY_ASSIGNED_CONTEXT ( ( #43 ) ) GLOBAL_UNIT_ASSIGNED_CONTEXT ( ( #223, #32, #207 ) ) REPRESENTATION_CONTEXT ( 'NONE', 'WORKASPACE' ) );
#69 = SURFACE_SIDE_STYLE ('',( #71 ) ) ;
#70 = VECTOR ( 'NONE', #85, 39.37007874015748143 ) ;
#71 = SURFACE_STYLE_FILL_AREA ( #52 ) ;
#72 =( LENGTH_UNIT ( ) NAMED_UNIT ( * ) SI_UNIT ( $, .METRE. ) );
#73 = STYLED_ITEM ( 'NONE', ( #133 ), #141 ) ;
#74 = DIRECTION ( 'NONE',  ( 1.000000000000000000, 0.000000000000000000, 0.000000000000000000 ) ) ;
#75 = CARTESIAN_POINT ( 'NONE',  ( 0.2149999999999999689, 2.632990618166808804E-17, 0.000000000000000000 ) ) ;
#76 = VECTOR ( 'NONE', #39, 39.37007874015748143 ) ;
#77 = DIRECTION ( 'NONE',  ( 1.000000000000000000, 0.000000000000000000, 0.000000000000000000 ) ) ;
#78 = EDGE_LOOP ( 'NONE', ( #165, #144 ) ) ;
#79 = ORIENTED_EDGE ( 'NONE', *, *, #208, .F. ) ;
#80 = ORIENTED_EDGE ( 'NONE', *, *, #116, .F. ) ;
#81 = VERTEX_POINT ( 'NONE', #17 ) ;
#82 = ADVANCED_BREP_SHAPE_REPRESENTATION ( 'am-1699 0.430 ID 0.500 OD 0.500 Long Aluminum Spacer', ( #141, #63 ), #203 ) ;
#83 = DIRECTION ( 'NONE',  ( 0.000000000000000000, 0.000000000000000000, 1.000000000000000000 ) ) ;
#84 = AXIS2_PLACEMENT_3D ( 'NONE', #129, #46, #219 ) ;
#85 = DIRECTION ( 'NONE',  ( -0.000000000000000000, -0.000000000000000000, -1.000000000000000000 ) ) ;
#86 = FACE_BOUND ( 'NONE', #146, .T. ) ;
#87 = DIRECTION ( 'NONE',  ( 0.000000000000000000, 0.000000000000000000, 1.000000000000000000 ) ) ;
#88 = SURFACE_STYLE_FILL_AREA ( #20 ) ;
#89 = CIRCLE ( 'NONE', #36, 0.2500000000000000000 ) ;
#90 = EDGE_CURVE ( 'NONE', #26, #81, #134, .T. ) ;
#91 = PRESENTATION_STYLE_ASSIGNMENT (( #136 ) ) ;
#92 = PRODUCT_DEFINITION_SHAPE ( 'NONE', 'NONE',  #101 ) ;
#93 = APPLICATION_PROTOCOL_DEFINITION ( 'draft international standard', 'automotive_design', 1998, #145 ) ;
#94 = ORIENTED_EDGE ( 'NONE', *, *, #90, .F. ) ;
#95 = AXIS2_PLACEMENT_3D ( 'NONE', #139, #212, #35 ) ;
#96 = EDGE_LOOP ( 'NONE', ( #181, #65, #60, #8 ) ) ;
#97 = VERTEX_POINT ( 'NONE', #34 ) ;
#98 = PRODUCT_DEFINITION_CONTEXT ( 'detailed design', #221, 'design' ) ;
#99 = EDGE_LOOP ( 'NONE', ( #167, #168 ) ) ;
#100 = AXIS2_PLACEMENT_3D ( 'NONE', #37, #123, #56 ) ;
#101 = PRODUCT_DEFINITION ( 'UNKNOWN', '', #206, #98 ) ;
#102 = DIRECTION ( 'NONE',  ( 1.000000000000000000, 0.000000000000000000, 0.000000000000000000 ) ) ;
#103 = CIRCLE ( 'NONE', #45, 0.2149999999999999689 ) ;
#104 = PLANE ( 'NONE',  #160 ) ;
#105 = DIRECTION ( 'NONE',  ( 0.000000000000000000, 0.000000000000000000, 1.000000000000000000 ) ) ;
#106 = ADVANCED_FACE ( 'NONE', ( #30, #31 ), #104, .F. ) ;
#107 = CIRCLE ( 'NONE', #114, 0.2149999999999999689 ) ;
#108 = LENGTH_MEASURE_WITH_UNIT ( LENGTH_MEASURE( 0.02539999999999999897 ), #121 );
#109 = CARTESIAN_POINT ( 'NONE',  ( 0.000000000000000000, 0.000000000000000000, 0.5000000000000000000 ) ) ;
#110 = FILL_AREA_STYLE_COLOUR ( '', #213 ) ;
#111 = LINE ( 'NONE', #211, #122 ) ;
#112 = DIRECTION ( 'NONE',  ( 1.000000000000000000, 0.000000000000000000, 0.000000000000000000 ) ) ;
#113 = CARTESIAN_POINT ( 'NONE',  ( -0.2149999999999999689, 0.000000000000000000, 0.5000000000000000000 ) ) ;
#114 = AXIS2_PLACEMENT_3D ( 'NONE', #178, #24, #77 ) ;
#115 = DIRECTION ( 'NONE',  ( 0.000000000000000000, 0.000000000000000000, 1.000000000000000000 ) ) ;
#116 = EDGE_CURVE ( 'NONE', #27, #97, #119, .T. ) ;
#117 = ORIENTED_EDGE ( 'NONE', *, *, #9, .F. ) ;
#118 = PLANE ( 'NONE',  #10 ) ;
#119 = CIRCLE ( 'NONE', #138, 0.2500000000000000000 ) ;
#120 = DIRECTION ( 'NONE',  ( -1.000000000000000000, 0.000000000000000000, 0.000000000000000000 ) ) ;
#121 =( LENGTH_UNIT ( ) NAMED_UNIT ( * ) SI_UNIT ( $, .METRE. ) );
#122 = VECTOR ( 'NONE', #209, 39.37007874015748143 ) ;
#123 = DIRECTION ( 'NONE',  ( -0.000000000000000000, -0.000000000000000000, -1.000000000000000000 ) ) ;
#124 = LINE ( 'NONE', #191, #210 ) ;
#125 = VERTEX_POINT ( 'NONE', #204 ) ;
#126 = PRODUCT_RELATED_PRODUCT_CATEGORY ( 'part', '', ( #41 ) ) ;
#127 = EDGE_LOOP ( 'NONE', ( #79, #28, #196, #117 ) ) ;
#128 = DIMENSIONAL_EXPONENTS ( 1.000000000000000000, 0.000000000000000000, 0.000000000000000000, 0.000000000000000000, 0.000000000000000000, 0.000000000000000000, 0.000000000000000000 ) ;
#129 = CARTESIAN_POINT ( 'NONE',  ( 0.000000000000000000, 0.000000000000000000, 0.5000000000000000000 ) ) ;
#130 =( GEOMETRIC_REPRESENTATION_CONTEXT ( 3 ) GLOBAL_UNCERTAINTY_ASSIGNED_CONTEXT ( ( #132 ) ) GLOBAL_UNIT_ASSIGNED_CONTEXT ( ( #174, #2, #42 ) ) REPRESENTATION_CONTEXT ( 'NONE', 'WORKASPACE' ) );
#131 = CARTESIAN_POINT ( 'NONE',  ( 0.000000000000000000, 0.000000000000000000, 0.000000000000000000 ) ) ;
#132 = UNCERTAINTY_MEASURE_WITH_UNIT (LENGTH_MEASURE( 1.000000000000000082E-05 ), #174, 'distance_accuracy_value', 'NONE');
#133 = PRESENTATION_STYLE_ASSIGNMENT (( #66 ) ) ;
#134 = LINE ( 'NONE', #50, #70 ) ;
#135 = ADVANCED_FACE ( 'NONE', ( #205, #86 ), #118, .T. ) ;
#136 = SURFACE_STYLE_USAGE ( .BOTH. , #188 ) ;
#137 =( CONVERSION_BASED_UNIT ( 'INCH', #158 ) LENGTH_UNIT ( ) NAMED_UNIT ( #5 ) );
#138 = AXIS2_PLACEMENT_3D ( 'NONE', #187, #105, #102 ) ;
#139 = CARTESIAN_POINT ( 'NONE',  ( 0.000000000000000000, 0.000000000000000000, 0.5000000000000000000 ) ) ;
#140 = CARTESIAN_POINT ( 'NONE',  ( 0.000000000000000000, 0.000000000000000000, 0.5000000000000000000 ) ) ;
#141 = MANIFOLD_SOLID_BREP ( 'Boss-Extrude1', #156 ) ;
#142 = AXIS2_PLACEMENT_3D ( 'NONE', #131, #115, #112 ) ;
#143 = EDGE_CURVE ( 'NONE', #97, #27, #21, .T. ) ;
#144 = ORIENTED_EDGE ( 'NONE', *, *, #58, .F. ) ;
#145 = APPLICATION_CONTEXT ( 'automotive_design' ) ;
#146 = EDGE_LOOP ( 'NONE', ( #198, #162 ) ) ;
#147 = ORIENTED_EDGE ( 'NONE', *, *, #192, .F. ) ;
#148 = CIRCLE ( 'NONE', #152, 0.2149999999999999689 ) ;
#149 = FACE_OUTER_BOUND ( 'NONE', #182, .T. ) ;
#150 = CARTESIAN_POINT ( 'NONE',  ( 0.000000000000000000, 0.000000000000000000, 0.5000000000000000000 ) ) ;
#151 = DIRECTION ( 'NONE',  ( 0.000000000000000000, 0.000000000000000000, 1.000000000000000000 ) ) ;
#152 = AXIS2_PLACEMENT_3D ( 'NONE', #109, #57, #74 ) ;
#153 = LENGTH_MEASURE_WITH_UNIT ( LENGTH_MEASURE( 0.02539999999999999897 ), #202 );
#154 = DIRECTION ( 'NONE',  ( 1.000000000000000000, 0.000000000000000000, -0.000000000000000000 ) ) ;
#155 = DIRECTION ( 'NONE',  ( 1.000000000000000000, 0.000000000000000000, 0.000000000000000000 ) ) ;
#156 = CLOSED_SHELL ( 'NONE', ( #159, #33, #135, #106, #169, #40 ) ) ;
#157 =( NAMED_UNIT ( * ) SI_UNIT ( $, .STERADIAN. ) SOLID_ANGLE_UNIT ( ) );
#158 = LENGTH_MEASURE_WITH_UNIT ( LENGTH_MEASURE( 0.02539999999999999897 ), #72 );
#159 = ADVANCED_FACE ( 'NONE', ( #1 ), #190, .F. ) ;
#160 = AXIS2_PLACEMENT_3D ( 'NONE', #13, #29, #154 ) ;
#161 = DIMENSIONAL_EXPONENTS ( 1.000000000000000000, 0.000000000000000000, 0.000000000000000000, 0.000000000000000000, 0.000000000000000000, 0.000000000000000000, 0.000000000000000000 ) ;
#162 = ORIENTED_EDGE ( 'NONE', *, *, #176, .F. ) ;
#163 = CARTESIAN_POINT ( 'NONE',  ( 0.000000000000000000, 0.000000000000000000, 0.000000000000000000 ) ) ;
#164 = VERTEX_POINT ( 'NONE', #38 ) ;
#165 = ORIENTED_EDGE ( 'NONE', *, *, #67, .F. ) ;
#166 = APPLICATION_PROTOCOL_DEFINITION ( 'draft international standard', 'automotive_design', 1998, #221 ) ;
#167 = ORIENTED_EDGE ( 'NONE', *, *, #23, .T. ) ;
#168 = ORIENTED_EDGE ( 'NONE', *, *, #9, .T. ) ;
#169 = ADVANCED_FACE ( 'NONE', ( #55 ), #4, .T. ) ;
#170 = CARTESIAN_POINT ( 'NONE',  ( 0.000000000000000000, 0.000000000000000000, 0.000000000000000000 ) ) ;
#171 = DIRECTION ( 'NONE',  ( 1.000000000000000000, 0.000000000000000000, -0.000000000000000000 ) ) ;
#172 = MECHANICAL_DESIGN_GEOMETRIC_PRESENTATION_REPRESENTATION (  '', ( #53 ), #130 ) ;
#173 = CARTESIAN_POINT ( 'NONE',  ( 0.000000000000000000, 0.000000000000000000, 0.5000000000000000000 ) ) ;
#174 =( CONVERSION_BASED_UNIT ( 'INCH', #108 ) LENGTH_UNIT ( ) NAMED_UNIT ( #161 ) );
#175 = MECHANICAL_DESIGN_GEOMETRIC_PRESENTATION_REPRESENTATION (  '', ( #73 ), #68 ) ;
#176 = EDGE_CURVE ( 'NONE', #125, #26, #148, .T. ) ;
#177 =( NAMED_UNIT ( * ) PLANE_ANGLE_UNIT ( ) SI_UNIT ( $, .RADIAN. ) );
#178 = CARTESIAN_POINT ( 'NONE',  ( 0.000000000000000000, 0.000000000000000000, 0.000000000000000000 ) ) ;
#179 = CARTESIAN_POINT ( 'NONE',  ( 0.2500000000000000000, 3.061616997868383018E-17, 0.5000000000000000000 ) ) ;
#180 = SHAPE_DEFINITION_REPRESENTATION ( #92, #82 ) ;
#181 = ORIENTED_EDGE ( 'NONE', *, *, #218, .F. ) ;
#182 = EDGE_LOOP ( 'NONE', ( #80, #64, #48, #147 ) ) ;
#183 = DIRECTION ( 'NONE',  ( 0.000000000000000000, 0.000000000000000000, 1.000000000000000000 ) ) ;
#184 = DIRECTION ( 'NONE',  ( 1.000000000000000000, 0.000000000000000000, 0.000000000000000000 ) ) ;
#185 = DIRECTION ( 'NONE',  ( -0.000000000000000000, -0.000000000000000000, -1.000000000000000000 ) ) ;
#186 = CIRCLE ( 'NONE', #6, 0.2500000000000000000 ) ;
#187 = CARTESIAN_POINT ( 'NONE',  ( 0.000000000000000000, 0.000000000000000000, 0.5000000000000000000 ) ) ;
#188 = SURFACE_SIDE_STYLE ('',( #88 ) ) ;
#189 = AXIS2_PLACEMENT_3D ( 'NONE', #15, #185, #120 ) ;
#190 = CYLINDRICAL_SURFACE ( 'NONE', #95, 0.2149999999999999689 ) ;
#191 = CARTESIAN_POINT ( 'NONE',  ( -0.2500000000000000000, 0.000000000000000000, 0.5000000000000000000 ) ) ;
#192 = EDGE_CURVE ( 'NONE', #97, #164, #124, .T. ) ;
#193 = DIRECTION ( 'NONE',  ( 1.000000000000000000, 0.000000000000000000, 0.000000000000000000 ) ) ;
#194 = DIRECTION ( 'NONE',  ( 0.000000000000000000, 0.000000000000000000, 1.000000000000000000 ) ) ;
#195 = EDGE_LOOP ( 'NONE', ( #49, #215 ) ) ;
#196 = ORIENTED_EDGE ( 'NONE', *, *, #90, .T. ) ;
#197 = UNCERTAINTY_MEASURE_WITH_UNIT (LENGTH_MEASURE( 1.000000000000000082E-05 ), #137, 'distance_accuracy_value', 'NONE');
#198 = ORIENTED_EDGE ( 'NONE', *, *, #201, .F. ) ;
#199 = ORIENTED_EDGE ( 'NONE', *, *, #208, .T. ) ;
#200 = FACE_OUTER_BOUND ( 'NONE', #127, .T. ) ;
#201 = EDGE_CURVE ( 'NONE', #26, #125, #103, .T. ) ;
#202 =( LENGTH_UNIT ( ) NAMED_UNIT ( * ) SI_UNIT ( $, .METRE. ) );
#203 =( GEOMETRIC_REPRESENTATION_CONTEXT ( 3 ) GLOBAL_UNCERTAINTY_ASSIGNED_CONTEXT ( ( #197 ) ) GLOBAL_UNIT_ASSIGNED_CONTEXT ( ( #137, #177, #157 ) ) REPRESENTATION_CONTEXT ( 'NONE', 'WORKASPACE' ) );
#204 = CARTESIAN_POINT ( 'NONE',  ( 0.2149999999999999689, 2.632990618166808804E-17, 0.5000000000000000000 ) ) ;
#205 = FACE_OUTER_BOUND ( 'NONE', #195, .T. ) ;
#206 = PRODUCT_DEFINITION_FORMATION_WITH_SPECIFIED_SOURCE ( 'ANY', '', #41, .NOT_KNOWN. ) ;
#207 =( NAMED_UNIT ( * ) SI_UNIT ( $, .STERADIAN. ) SOLID_ANGLE_UNIT ( ) );
#208 = EDGE_CURVE ( 'NONE', #125, #214, #22, .T. ) ;
#209 = DIRECTION ( 'NONE',  ( -0.000000000000000000, -0.000000000000000000, -1.000000000000000000 ) ) ;
#210 = VECTOR ( 'NONE', #3, 39.37007874015748143 ) ;
#211 = CARTESIAN_POINT ( 'NONE',  ( 0.2500000000000000000, 3.061616997868383018E-17, 0.5000000000000000000 ) ) ;
#212 = DIRECTION ( 'NONE',  ( -0.000000000000000000, -0.000000000000000000, -1.000000000000000000 ) ) ;
#213 = COLOUR_RGB ( '',0.8980392156862745390, 0.9176470588235293713, 0.9294117647058823817 ) ;
#214 = VERTEX_POINT ( 'NONE', #75 ) ;
#215 = ORIENTED_EDGE ( 'NONE', *, *, #116, .T. ) ;
#216 = CIRCLE ( 'NONE', #142, 0.2149999999999999689 ) ;
#217 = ORIENTED_EDGE ( 'NONE', *, *, #23, .F. ) ;
#218 = EDGE_CURVE ( 'NONE', #27, #61, #111, .T. ) ;
#219 = DIRECTION ( 'NONE',  ( -1.000000000000000000, 0.000000000000000000, 0.000000000000000000 ) ) ;
#220 = FILL_AREA_STYLE_COLOUR ( '', #18 ) ;
#221 = APPLICATION_CONTEXT ( 'automotive_design' ) ;
#222 = CARTESIAN_POINT ( 'NONE',  ( 0.000000000000000000, 0.000000000000000000, 0.000000000000000000 ) ) ;
#223 =( CONVERSION_BASED_UNIT ( 'INCH', #153 ) LENGTH_UNIT ( ) NAMED_UNIT ( #128 ) );
ENDSEC;
END-ISO-10303-21;
